ISO-10303-21;
HEADER;
FILE_DESCRIPTION (( 'STEP AP203' ),
    '1' );
FILE_NAME ('Q-OZHWP-R2-12.7-355-M.STEP',
    '2020-12-22T09:13:56',
    ( '' ),
    ( '' ),
    'SwSTEP 2.0',
    'SolidWorks 2020',
    '' );
FILE_SCHEMA (( 'CONFIG_CONTROL_DESIGN' ));
ENDSEC;

DATA;
#1 = DATE_AND_TIME ( #54, #328 ) ;
#2 = EDGE_LOOP ( 'NONE', ( #287, #297, #189, #6 ) ) ;
#3 = ADVANCED_FACE ( 'NONE', ( #196 ), #169, .T. ) ;
#4 = CIRCLE ( 'NONE', #126, 12.69999999999999929 ) ;
#5 = CC_DESIGN_APPROVAL ( #216, ( #32 ) ) ;
#6 = ORIENTED_EDGE ( 'NONE', *, *, #112, .T. ) ;
#7 = EDGE_LOOP ( 'NONE', ( #92, #217, #28, #284 ) ) ;
#8 = APPROVAL_STATUS ( 'not_yet_approved' ) ;
#9 = ORIENTED_EDGE ( 'NONE', *, *, #178, .F. ) ;
#10 = CIRCLE ( 'NONE', #179, 6.349999999999999645 ) ;
#11 = AXIS2_PLACEMENT_3D ( 'NONE', #253, #168, #144 ) ;
#12 = ORIENTED_EDGE ( 'NONE', *, *, #207, .F. ) ;
#13 = CC_DESIGN_PERSON_AND_ORGANIZATION_ASSIGNMENT ( #306, #206, ( #32 ) ) ;
#14 = PLANE ( 'NONE',  #98 ) ;
#15 = CARTESIAN_POINT ( 'NONE',  ( -2.999999999999999556, 7.776507174585692163E-16, -6.349999999999999645 ) ) ;
#16 = DIRECTION ( 'NONE',  ( -1.000000000000000000, -0.000000000000000000, -0.000000000000000000 ) ) ;
#17 = VERTEX_POINT ( 'NONE', #223 ) ;
#18 = LOCAL_TIME ( 17, 13, 56.00000000000000000, #84 ) ;
#19 = DIRECTION ( 'NONE',  ( -1.000000000000000000, -0.000000000000000000, -0.000000000000000000 ) ) ;
#20 = DIRECTION ( 'NONE',  ( 0.000000000000000000, 0.000000000000000000, -1.000000000000000000 ) ) ;
#21 = DIRECTION ( 'NONE',  ( 0.000000000000000000, 0.000000000000000000, 1.000000000000000000 ) ) ;
#22 = CIRCLE ( 'NONE', #51, 6.349999999999999645 ) ;
#23 = CYLINDRICAL_SURFACE ( 'NONE', #132, 6.349999999999999645 ) ;
#24 = CC_DESIGN_APPROVAL ( #311, ( #191 ) ) ;
#25 = APPROVAL_DATE_TIME ( #102, #188 ) ;
#26 = MECHANICAL_CONTEXT ( 'NONE', #82, 'mechanical' ) ;
#27 = DATE_AND_TIME ( #177, #234 ) ;
#28 = ORIENTED_EDGE ( 'NONE', *, *, #243, .T. ) ;
#29 = EDGE_CURVE ( 'NONE', #286, #187, #123, .T. ) ;
#30 = ORIENTED_EDGE ( 'NONE', *, *, #305, .F. ) ;
#31 = ORIENTED_EDGE ( 'NONE', *, *, #112, .F. ) ;
#32 = PRODUCT_DEFINITION_FORMATION_WITH_SPECIFIED_SOURCE ( 'ANY', '', #214, .NOT_KNOWN. ) ;
#33 = EDGE_LOOP ( 'NONE', ( #249, #158, #312, #133 ) ) ;
#34 = EDGE_CURVE ( 'NONE', #187, #85, #288, .T. ) ;
#35 = ORIENTED_EDGE ( 'NONE', *, *, #60, .F. ) ;
#36 = CARTESIAN_POINT ( 'NONE',  ( -3.000000000000000000, 0.000000000000000000, 12.69999999999999929 ) ) ;
#37 = APPLICATION_CONTEXT ( 'configuration controlled 3d designs of mechanical parts and assemblies' ) ;
#38 = ADVANCED_FACE ( 'NONE', ( #173 ), #318, .T. ) ;
#39 = FACE_BOUND ( 'NONE', #108, .T. ) ;
#40 = DIRECTION ( 'NONE',  ( 0.000000000000000000, 0.000000000000000000, 1.000000000000000000 ) ) ;
#41 = DIRECTION ( 'NONE',  ( 0.000000000000000000, 0.000000000000000000, 1.000000000000000000 ) ) ;
#42 = DIRECTION ( 'NONE',  ( -0.000000000000000000, 0.000000000000000000, 1.000000000000000000 ) ) ;
#43 = DIRECTION ( 'NONE',  ( -1.000000000000000000, -0.000000000000000000, -0.000000000000000000 ) ) ;
#44 = AXIS2_PLACEMENT_3D ( 'NONE', #254, #289, #20 ) ;
#45 = EDGE_CURVE ( 'NONE', #309, #286, #10, .T. ) ;
#46 = DIRECTION ( 'NONE',  ( -1.000000000000000000, -0.000000000000000000, -0.000000000000000000 ) ) ;
#47 = DIRECTION ( 'NONE',  ( 0.000000000000000000, 0.000000000000000000, -1.000000000000000000 ) ) ;
#48 = CARTESIAN_POINT ( 'NONE',  ( -1.614212418857619014, 0.000000000000000000, 0.000000000000000000 ) ) ;
#49 = DIRECTION ( 'NONE',  ( 0.000000000000000000, 0.000000000000000000, 1.000000000000000000 ) ) ;
#50 = EDGE_CURVE ( 'NONE', #17, #220, #135, .T. ) ;
#51 = AXIS2_PLACEMENT_3D ( 'NONE', #61, #225, #167 ) ;
#52 = SECURITY_CLASSIFICATION_LEVEL ( 'unclassified' ) ;
#53 = AXIS2_PLACEMENT_3D ( 'NONE', #324, #90, #139 ) ;
#54 = CALENDAR_DATE ( 2020, 22, 12 ) ;
#55 = VERTEX_POINT ( 'NONE', #267 ) ;
#56 = CIRCLE ( 'NONE', #285, 6.349999999999999645 ) ;
#57 = ORIENTED_EDGE ( 'NONE', *, *, #252, .T. ) ;
#58 = DESIGN_CONTEXT ( 'detailed design', #37, 'design' ) ;
#59 = FACE_OUTER_BOUND ( 'NONE', #106, .T. ) ;
#60 = EDGE_CURVE ( 'NONE', #286, #309, #202, .T. ) ;
#61 = CARTESIAN_POINT ( 'NONE',  ( 1.500000000000000888, 0.000000000000000000, 0.000000000000000000 ) ) ;
#62 = CARTESIAN_POINT ( 'NONE',  ( -3.000000000000000000, 0.000000000000000000, 0.000000000000000000 ) ) ;
#63 = CC_DESIGN_APPROVAL ( #188, ( #246 ) ) ;
#64 = EDGE_LOOP ( 'NONE', ( #30, #171, #121, #218 ) ) ;
#65 = DIRECTION ( 'NONE',  ( -1.000000000000000000, -0.000000000000000000, -0.000000000000000000 ) ) ;
#66 = DIRECTION ( 'NONE',  ( 0.000000000000000000, 0.000000000000000000, 1.000000000000000000 ) ) ;
#67 = CARTESIAN_POINT ( 'NONE',  ( -1.614212418857619014, 0.000000000000000000, 6.349999999999999645 ) ) ;
#68 = DIRECTION ( 'NONE',  ( -1.000000000000000000, -0.000000000000000000, -0.000000000000000000 ) ) ;
#69 = ADVANCED_FACE ( 'NONE', ( #59 ), #315, .F. ) ;
#70 = DIRECTION ( 'NONE',  ( -1.000000000000000000, -0.000000000000000000, -0.000000000000000000 ) ) ;
#71 = PLANE ( 'NONE',  #292 ) ;
#72 = AXIS2_PLACEMENT_3D ( 'NONE', #128, #233, #301 ) ;
#73 = CARTESIAN_POINT ( 'NONE',  ( -1.614212418857619014, 7.776507174585692163E-16, -6.349999999999999645 ) ) ;
#74 = PERSON_AND_ORGANIZATION_ROLE ( 'design_owner' ) ;
#75 = COORDINATED_UNIVERSAL_TIME_OFFSET ( 8, 0, .AHEAD. ) ;
#76 = APPLICATION_PROTOCOL_DEFINITION ( 'international standard', 'config_control_design', 1994, #37 ) ;
#77 = APPROVAL_DATE_TIME ( #213, #216 ) ;
#78 = AXIS2_PLACEMENT_3D ( 'NONE', #193, #291, #118 ) ;
#79 = ORIENTED_EDGE ( 'NONE', *, *, #194, .T. ) ;
#80 = CC_DESIGN_SECURITY_CLASSIFICATION ( #191, ( #32 ) ) ;
#81 = VERTEX_POINT ( 'NONE', #36 ) ;
#82 = APPLICATION_CONTEXT ( 'configuration controlled 3d designs of mechanical parts and assemblies' ) ;
#83 = ORIENTED_EDGE ( 'NONE', *, *, #252, .F. ) ;
#84 = COORDINATED_UNIVERSAL_TIME_OFFSET ( 8, 0, .AHEAD. ) ;
#85 = VERTEX_POINT ( 'NONE', #15 ) ;
#86 = ORIENTED_EDGE ( 'NONE', *, *, #331, .F. ) ;
#87 = DIRECTION ( 'NONE',  ( -1.000000000000000000, -0.000000000000000000, -0.000000000000000000 ) ) ;
#88 = LINE ( 'NONE', #67, #308 ) ;
#89 = DIRECTION ( 'NONE',  ( -1.000000000000000000, -0.000000000000000000, -0.000000000000000000 ) ) ;
#90 = DIRECTION ( 'NONE',  ( -1.000000000000000000, -0.000000000000000000, -0.000000000000000000 ) ) ;
#91 = VECTOR ( 'NONE', #19, 1000.000000000000000 ) ;
#92 = ORIENTED_EDGE ( 'NONE', *, *, #174, .F. ) ;
#93 = DIRECTION ( 'NONE',  ( -1.000000000000000000, -0.000000000000000000, -0.000000000000000000 ) ) ;
#94 = DIRECTION ( 'NONE',  ( 1.000000000000000000, 0.000000000000000000, 0.000000000000000000 ) ) ;
#95 = DIRECTION ( 'NONE',  ( -1.000000000000000000, -0.000000000000000000, -0.000000000000000000 ) ) ;
#96 = DIRECTION ( 'NONE',  ( 0.000000000000000000, 0.000000000000000000, -1.000000000000000000 ) ) ;
#97 = CARTESIAN_POINT ( 'NONE',  ( 3.000000000000000000, 0.000000000000000000, 0.000000000000000000 ) ) ;
#98 = AXIS2_PLACEMENT_3D ( 'NONE', #195, #204, #300 ) ;
#99 = DATE_TIME_ROLE ( 'creation_date' ) ;
#100 = CC_DESIGN_DATE_AND_TIME_ASSIGNMENT ( #1, #134, ( #191 ) ) ;
#101 = COORDINATED_UNIVERSAL_TIME_OFFSET ( 8, 0, .AHEAD. ) ;
#102 = DATE_AND_TIME ( #152, #129 ) ;
#103 = PRODUCT_DEFINITION_SHAPE ( 'NONE', 'NONE',  #246 ) ;
#104 = ADVANCED_FACE ( 'NONE', ( #136 ), #244, .F. ) ;
#105 = APPROVAL_ROLE ( '' ) ;
#106 = EDGE_LOOP ( 'NONE', ( #9, #138, #241, #12 ) ) ;
#107 =( GEOMETRIC_REPRESENTATION_CONTEXT ( 3 ) GLOBAL_UNCERTAINTY_ASSIGNED_CONTEXT ( ( #166 ) ) GLOBAL_UNIT_ASSIGNED_CONTEXT ( ( #150, #125, #279 ) ) REPRESENTATION_CONTEXT ( 'NONE', 'WORKASPACE' ) );
#108 = EDGE_LOOP ( 'NONE', ( #200, #86 ) ) ;
#109 = SHAPE_DEFINITION_REPRESENTATION ( #103, #209 ) ;
#110 = EDGE_LOOP ( 'NONE', ( #35, #335 ) ) ;
#111 = AXIS2_PLACEMENT_3D ( 'NONE', #295, #68, #66 ) ;
#112 = EDGE_CURVE ( 'NONE', #55, #131, #22, .T. ) ;
#113 = ORGANIZATION ( 'UNSPECIFIED', 'UNSPECIFIED', '' ) ;
#114 = EDGE_LOOP ( 'NONE', ( #83, #146 ) ) ;
#115 = EDGE_LOOP ( 'NONE', ( #263, #79 ) ) ;
#116 = ADVANCED_FACE ( 'NONE', ( #39, #247 ), #71, .F. ) ;
#117 = LINE ( 'NONE', #296, #91 ) ;
#118 = DIRECTION ( 'NONE',  ( 0.000000000000000000, 0.000000000000000000, -1.000000000000000000 ) ) ;
#119 = LINE ( 'NONE', #250, #145 ) ;
#120 = CIRCLE ( 'NONE', #304, 6.349999999999999645 ) ;
#121 = ORIENTED_EDGE ( 'NONE', *, *, #29, .T. ) ;
#122 = CARTESIAN_POINT ( 'NONE',  ( 3.000000000000000000, 0.000000000000000000, 12.69999999999999929 ) ) ;
#123 = LINE ( 'NONE', #265, #151 ) ;
#124 = DIRECTION ( 'NONE',  ( 0.000000000000000000, 0.000000000000000000, 1.000000000000000000 ) ) ;
#125 =( NAMED_UNIT ( * ) PLANE_ANGLE_UNIT ( ) SI_UNIT ( $, .RADIAN. ) );
#126 = AXIS2_PLACEMENT_3D ( 'NONE', #62, #226, #272 ) ;
#127 = PERSON_AND_ORGANIZATION ( #334, #113 ) ;
#128 = CARTESIAN_POINT ( 'NONE',  ( 0.000000000000000000, 0.000000000000000000, 0.000000000000000000 ) ) ;
#129 = LOCAL_TIME ( 17, 13, 56.00000000000000000, #208 ) ;
#130 = PERSON_AND_ORGANIZATION ( #334, #113 ) ;
#131 = VERTEX_POINT ( 'NONE', #203 ) ;
#132 = AXIS2_PLACEMENT_3D ( 'NONE', #172, #93, #124 ) ;
#133 = ORIENTED_EDGE ( 'NONE', *, *, #29, .F. ) ;
#134 = DATE_TIME_ROLE ( 'classification_date' ) ;
#135 = CIRCLE ( 'NONE', #232, 12.69999999999999929 ) ;
#136 = FACE_OUTER_BOUND ( 'NONE', #110, .T. ) ;
#137 = VECTOR ( 'NONE', #46, 1000.000000000000000 ) ;
#138 = ORIENTED_EDGE ( 'NONE', *, *, #261, .T. ) ;
#139 = DIRECTION ( 'NONE',  ( 0.000000000000000000, 0.000000000000000000, 1.000000000000000000 ) ) ;
#140 = CARTESIAN_POINT ( 'NONE',  ( -1.614212418857619014, 0.000000000000000000, 0.000000000000000000 ) ) ;
#141 = PLANE ( 'NONE',  #274 ) ;
#142 = AXIS2_PLACEMENT_3D ( 'NONE', #316, #43, #273 ) ;
#143 = CARTESIAN_POINT ( 'NONE',  ( -1.500000000000000444, 0.000000000000000000, 0.000000000000000000 ) ) ;
#144 = DIRECTION ( 'NONE',  ( 0.000000000000000000, 0.000000000000000000, 1.000000000000000000 ) ) ;
#145 = VECTOR ( 'NONE', #95, 1000.000000000000000 ) ;
#146 = ORIENTED_EDGE ( 'NONE', *, *, #50, .F. ) ;
#147 = CARTESIAN_POINT ( 'NONE',  ( -1.500000000000000444, 0.000000000000000000, 6.349999999999999645 ) ) ;
#148 = CARTESIAN_POINT ( 'NONE',  ( -2.999999999999999556, 0.000000000000000000, 6.349999999999999645 ) ) ;
#149 = CC_DESIGN_PERSON_AND_ORGANIZATION_ASSIGNMENT ( #281, #302, ( #191 ) ) ;
#150 =( LENGTH_UNIT ( ) NAMED_UNIT ( * ) SI_UNIT ( .MILLI., .METRE. ) );
#151 = VECTOR ( 'NONE', #269, 1000.000000000000000 ) ;
#152 = CALENDAR_DATE ( 2020, 22, 12 ) ;
#153 = CIRCLE ( 'NONE', #11, 6.349999999999999645 ) ;
#154 = ADVANCED_FACE ( 'NONE', ( #299 ), #201, .F. ) ;
#155 = ORIENTED_EDGE ( 'NONE', *, *, #258, .T. ) ;
#156 = APPROVAL_DATE_TIME ( #219, #311 ) ;
#157 = CC_DESIGN_DATE_AND_TIME_ASSIGNMENT ( #27, #99, ( #246 ) ) ;
#158 = ORIENTED_EDGE ( 'NONE', *, *, #305, .T. ) ;
#159 = MANIFOLD_SOLID_BREP ( 'Ðý×', #307 ) ;
#160 = AXIS2_PLACEMENT_3D ( 'NONE', #332, #259, #180 ) ;
#161 = CALENDAR_DATE ( 2020, 22, 12 ) ;
#162 = ORIENTED_EDGE ( 'NONE', *, *, #229, .F. ) ;
#163 = ADVANCED_FACE ( 'NONE', ( #276 ), #23, .F. ) ;
#164 = DIRECTION ( 'NONE',  ( 0.000000000000000000, 0.000000000000000000, 1.000000000000000000 ) ) ;
#165 = AXIS2_PLACEMENT_3D ( 'NONE', #251, #221, #271 ) ;
#166 = UNCERTAINTY_MEASURE_WITH_UNIT (LENGTH_MEASURE( 1.000000000000000082E-05 ), #150, 'distance_accuracy_value', 'NONE');
#167 = DIRECTION ( 'NONE',  ( 0.000000000000000000, 0.000000000000000000, 1.000000000000000000 ) ) ;
#168 = DIRECTION ( 'NONE',  ( -1.000000000000000000, -0.000000000000000000, -0.000000000000000000 ) ) ;
#169 = CYLINDRICAL_SURFACE ( 'NONE', #111, 12.69999999999999929 ) ;
#170 = DIRECTION ( 'NONE',  ( -1.000000000000000000, -0.000000000000000000, -0.000000000000000000 ) ) ;
#171 = ORIENTED_EDGE ( 'NONE', *, *, #45, .T. ) ;
#172 = CARTESIAN_POINT ( 'NONE',  ( -1.614212418857619014, 0.000000000000000000, 0.000000000000000000 ) ) ;
#173 = FACE_OUTER_BOUND ( 'NONE', #215, .T. ) ;
#174 = EDGE_CURVE ( 'NONE', #17, #242, #117, .T. ) ;
#175 = DIRECTION ( 'NONE',  ( -1.000000000000000000, 0.000000000000000000, -0.000000000000000000 ) ) ;
#176 = CARTESIAN_POINT ( 'NONE',  ( 3.000000000000000888, 7.776507174585692163E-16, -6.349999999999999645 ) ) ;
#177 = CALENDAR_DATE ( 2020, 22, 12 ) ;
#178 = EDGE_CURVE ( 'NONE', #323, #190, #153, .T. ) ;
#179 = AXIS2_PLACEMENT_3D ( 'NONE', #143, #94, #47 ) ;
#180 = DIRECTION ( 'NONE',  ( 0.000000000000000000, 0.000000000000000000, 1.000000000000000000 ) ) ;
#181 = CIRCLE ( 'NONE', #53, 6.349999999999999645 ) ;
#182 = PERSON_AND_ORGANIZATION ( #334, #113 ) ;
#183 = APPROVAL_STATUS ( 'not_yet_approved' ) ;
#184 = EDGE_LOOP ( 'NONE', ( #31, #313 ) ) ;
#185 = AXIS2_PLACEMENT_3D ( 'NONE', #140, #87, #164 ) ;
#186 = APPROVAL_PERSON_ORGANIZATION ( #210, #216, #105 ) ;
#187 = VERTEX_POINT ( 'NONE', #148 ) ;
#188 = APPROVAL ( #183, 'UNSPECIFIED' ) ;
#189 = ORIENTED_EDGE ( 'NONE', *, *, #207, .T. ) ;
#190 = VERTEX_POINT ( 'NONE', #248 ) ;
#191 = SECURITY_CLASSIFICATION ( '', '', #52 ) ;
#192 = ORIENTED_EDGE ( 'NONE', *, *, #243, .F. ) ;
#193 = CARTESIAN_POINT ( 'NONE',  ( -1.500000000000000444, 6.349999999999999645, 0.000000000000000000 ) ) ;
#194 = EDGE_CURVE ( 'NONE', #242, #81, #205, .T. ) ;
#195 = CARTESIAN_POINT ( 'NONE',  ( 3.000000000000000000, 12.69999999999999929, 0.000000000000000000 ) ) ;
#196 = FACE_OUTER_BOUND ( 'NONE', #7, .T. ) ;
#197 = CIRCLE ( 'NONE', #280, 12.69999999999999929 ) ;
#198 = CARTESIAN_POINT ( 'NONE',  ( 1.500000000000000444, 6.349999999999999645, 0.000000000000000000 ) ) ;
#199 = ORIENTED_EDGE ( 'NONE', *, *, #178, .T. ) ;
#200 = ORIENTED_EDGE ( 'NONE', *, *, #34, .F. ) ;
#201 = CYLINDRICAL_SURFACE ( 'NONE', #237, 6.349999999999999645 ) ;
#202 = CIRCLE ( 'NONE', #44, 6.349999999999999645 ) ;
#203 = CARTESIAN_POINT ( 'NONE',  ( 1.500000000000000888, 7.776507174585692163E-16, -6.349999999999999645 ) ) ;
#204 = DIRECTION ( 'NONE',  ( -1.000000000000000000, 0.000000000000000000, -0.000000000000000000 ) ) ;
#205 = CIRCLE ( 'NONE', #211, 12.69999999999999929 ) ;
#206 = PERSON_AND_ORGANIZATION_ROLE ( 'creator' ) ;
#207 = EDGE_CURVE ( 'NONE', #190, #55, #88, .T. ) ;
#208 = COORDINATED_UNIVERSAL_TIME_OFFSET ( 8, 0, .AHEAD. ) ;
#209 = ADVANCED_BREP_SHAPE_REPRESENTATION ( 'Q-OZHWP-R2-12.7-355-M', ( #159, #72 ), #107 ) ;
#210 = PERSON_AND_ORGANIZATION ( #334, #113 ) ;
#211 = AXIS2_PLACEMENT_3D ( 'NONE', #298, #326, #49 ) ;
#212 = DIRECTION ( 'NONE',  ( 0.000000000000000000, 0.000000000000000000, 1.000000000000000000 ) ) ;
#213 = DATE_AND_TIME ( #330, #245 ) ;
#214 = PRODUCT ( 'Q-OZHWP-R2-12.7-355-M', 'Q-OZHWP-R2-12.7-355-M', '', ( #26 ) ) ;
#215 = EDGE_LOOP ( 'NONE', ( #57, #320, #162, #192 ) ) ;
#216 = APPROVAL ( #238, 'UNSPECIFIED' ) ;
#217 = ORIENTED_EDGE ( 'NONE', *, *, #50, .T. ) ;
#218 = ORIENTED_EDGE ( 'NONE', *, *, #34, .T. ) ;
#219 = DATE_AND_TIME ( #161, #18 ) ;
#220 = VERTEX_POINT ( 'NONE', #122 ) ;
#221 = DIRECTION ( 'NONE',  ( -1.000000000000000000, -0.000000000000000000, -0.000000000000000000 ) ) ;
#222 = CARTESIAN_POINT ( 'NONE',  ( -1.500000000000000444, 7.776507174585692163E-16, -6.349999999999999645 ) ) ;
#223 = CARTESIAN_POINT ( 'NONE',  ( 3.000000000000000000, 1.555301434917138433E-15, -12.69999999999999929 ) ) ;
#224 = CC_DESIGN_PERSON_AND_ORGANIZATION_ASSIGNMENT ( #182, #277, ( #32 ) ) ;
#225 = DIRECTION ( 'NONE',  ( -1.000000000000000000, -0.000000000000000000, -0.000000000000000000 ) ) ;
#226 = DIRECTION ( 'NONE',  ( -1.000000000000000000, -0.000000000000000000, -0.000000000000000000 ) ) ;
#227 = CARTESIAN_POINT ( 'NONE',  ( 3.000000000000000000, 0.000000000000000000, 0.000000000000000000 ) ) ;
#228 = CARTESIAN_POINT ( 'NONE',  ( -3.000000000000000000, 1.555301434917138433E-15, -12.69999999999999929 ) ) ;
#229 = EDGE_CURVE ( 'NONE', #81, #242, #4, .T. ) ;
#230 = CARTESIAN_POINT ( 'NONE',  ( -3.000000000000000000, 6.349999999999999645, 0.000000000000000000 ) ) ;
#231 = LINE ( 'NONE', #73, #262 ) ;
#232 = AXIS2_PLACEMENT_3D ( 'NONE', #227, #89, #41 ) ;
#233 = DIRECTION ( 'NONE',  ( 0.000000000000000000, 0.000000000000000000, 1.000000000000000000 ) ) ;
#234 = LOCAL_TIME ( 17, 13, 56.00000000000000000, #260 ) ;
#235 = PRODUCT_RELATED_PRODUCT_CATEGORY ( 'detail', '', ( #214 ) ) ;
#236 = DIRECTION ( 'NONE',  ( -1.000000000000000000, -0.000000000000000000, -0.000000000000000000 ) ) ;
#237 = AXIS2_PLACEMENT_3D ( 'NONE', #48, #319, #270 ) ;
#238 = APPROVAL_STATUS ( 'not_yet_approved' ) ;
#239 = CC_DESIGN_PERSON_AND_ORGANIZATION_ASSIGNMENT ( #127, #283, ( #246 ) ) ;
#240 = EDGE_LOOP ( 'NONE', ( #155, #199 ) ) ;
#241 = ORIENTED_EDGE ( 'NONE', *, *, #290, .T. ) ;
#242 = VERTEX_POINT ( 'NONE', #228 ) ;
#243 = EDGE_CURVE ( 'NONE', #220, #81, #255, .T. ) ;
#244 = PLANE ( 'NONE',  #78 ) ;
#245 = LOCAL_TIME ( 17, 13, 56.00000000000000000, #101 ) ;
#246 = PRODUCT_DEFINITION ( 'UNKNOWN', '', #32, #58 ) ;
#247 = FACE_OUTER_BOUND ( 'NONE', #115, .T. ) ;
#248 = CARTESIAN_POINT ( 'NONE',  ( 3.000000000000000888, 0.000000000000000000, 6.349999999999999645 ) ) ;
#249 = ORIENTED_EDGE ( 'NONE', *, *, #60, .T. ) ;
#250 = CARTESIAN_POINT ( 'NONE',  ( -1.614212418857619014, 7.776507174585692163E-16, -6.349999999999999645 ) ) ;
#251 = CARTESIAN_POINT ( 'NONE',  ( -2.999999999999999556, 0.000000000000000000, 0.000000000000000000 ) ) ;
#252 = EDGE_CURVE ( 'NONE', #220, #17, #197, .T. ) ;
#253 = CARTESIAN_POINT ( 'NONE',  ( 3.000000000000000888, 0.000000000000000000, 0.000000000000000000 ) ) ;
#254 = CARTESIAN_POINT ( 'NONE',  ( -1.500000000000000444, 0.000000000000000000, 0.000000000000000000 ) ) ;
#255 = LINE ( 'NONE', #268, #137 ) ;
#256 = FACE_OUTER_BOUND ( 'NONE', #184, .T. ) ;
#257 = APPLICATION_PROTOCOL_DEFINITION ( 'international standard', 'config_control_design', 1994, #82 ) ;
#258 = EDGE_CURVE ( 'NONE', #190, #323, #181, .T. ) ;
#259 = DIRECTION ( 'NONE',  ( -1.000000000000000000, -0.000000000000000000, -0.000000000000000000 ) ) ;
#260 = COORDINATED_UNIVERSAL_TIME_OFFSET ( 8, 0, .AHEAD. ) ;
#261 = EDGE_CURVE ( 'NONE', #323, #131, #119, .T. ) ;
#262 = VECTOR ( 'NONE', #170, 1000.000000000000000 ) ;
#263 = ORIENTED_EDGE ( 'NONE', *, *, #229, .T. ) ;
#264 = APPROVAL_ROLE ( '' ) ;
#265 = CARTESIAN_POINT ( 'NONE',  ( -1.614212418857619014, 0.000000000000000000, 6.349999999999999645 ) ) ;
#266 = CC_DESIGN_PERSON_AND_ORGANIZATION_ASSIGNMENT ( #130, #74, ( #214 ) ) ;
#267 = CARTESIAN_POINT ( 'NONE',  ( 1.500000000000000888, 0.000000000000000000, 6.349999999999999645 ) ) ;
#268 = CARTESIAN_POINT ( 'NONE',  ( -1.614212418857619014, 0.000000000000000000, 12.69999999999999929 ) ) ;
#269 = DIRECTION ( 'NONE',  ( -1.000000000000000000, -0.000000000000000000, -0.000000000000000000 ) ) ;
#270 = DIRECTION ( 'NONE',  ( 0.000000000000000000, 0.000000000000000000, 1.000000000000000000 ) ) ;
#271 = DIRECTION ( 'NONE',  ( 0.000000000000000000, 0.000000000000000000, 1.000000000000000000 ) ) ;
#272 = DIRECTION ( 'NONE',  ( 0.000000000000000000, 0.000000000000000000, 1.000000000000000000 ) ) ;
#273 = DIRECTION ( 'NONE',  ( 0.000000000000000000, 0.000000000000000000, 1.000000000000000000 ) ) ;
#274 = AXIS2_PLACEMENT_3D ( 'NONE', #198, #175, #42 ) ;
#275 = FACE_BOUND ( 'NONE', #240, .T. ) ;
#276 = FACE_OUTER_BOUND ( 'NONE', #64, .T. ) ;
#277 = PERSON_AND_ORGANIZATION_ROLE ( 'design_supplier' ) ;
#278 = ADVANCED_FACE ( 'NONE', ( #256 ), #141, .F. ) ;
#279 =( NAMED_UNIT ( * ) SI_UNIT ( $, .STERADIAN. ) SOLID_ANGLE_UNIT ( ) );
#280 = AXIS2_PLACEMENT_3D ( 'NONE', #97, #16, #40 ) ;
#281 = PERSON_AND_ORGANIZATION ( #334, #113 ) ;
#282 = ADVANCED_FACE ( 'NONE', ( #294, #275 ), #14, .F. ) ;
#283 = PERSON_AND_ORGANIZATION_ROLE ( 'creator' ) ;
#284 = ORIENTED_EDGE ( 'NONE', *, *, #194, .F. ) ;
#285 = AXIS2_PLACEMENT_3D ( 'NONE', #329, #236, #212 ) ;
#286 = VERTEX_POINT ( 'NONE', #147 ) ;
#287 = ORIENTED_EDGE ( 'NONE', *, *, #261, .F. ) ;
#288 = CIRCLE ( 'NONE', #165, 6.349999999999999645 ) ;
#289 = DIRECTION ( 'NONE',  ( 1.000000000000000000, 0.000000000000000000, 0.000000000000000000 ) ) ;
#290 = EDGE_CURVE ( 'NONE', #131, #55, #120, .T. ) ;
#291 = DIRECTION ( 'NONE',  ( 1.000000000000000000, 0.000000000000000000, 0.000000000000000000 ) ) ;
#292 = AXIS2_PLACEMENT_3D ( 'NONE', #230, #325, #96 ) ;
#293 = CYLINDRICAL_SURFACE ( 'NONE', #160, 6.349999999999999645 ) ;
#294 = FACE_OUTER_BOUND ( 'NONE', #114, .T. ) ;
#295 = CARTESIAN_POINT ( 'NONE',  ( -1.614212418857619014, 0.000000000000000000, 0.000000000000000000 ) ) ;
#296 = CARTESIAN_POINT ( 'NONE',  ( -1.614212418857619014, 1.555301434917138433E-15, -12.69999999999999929 ) ) ;
#297 = ORIENTED_EDGE ( 'NONE', *, *, #258, .F. ) ;
#298 = CARTESIAN_POINT ( 'NONE',  ( -3.000000000000000000, 0.000000000000000000, 0.000000000000000000 ) ) ;
#299 = FACE_OUTER_BOUND ( 'NONE', #33, .T. ) ;
#300 = DIRECTION ( 'NONE',  ( -0.000000000000000000, 0.000000000000000000, 1.000000000000000000 ) ) ;
#301 = DIRECTION ( 'NONE',  ( 1.000000000000000000, 0.000000000000000000, 0.000000000000000000 ) ) ;
#302 = PERSON_AND_ORGANIZATION_ROLE ( 'classification_officer' ) ;
#303 = PERSON_AND_ORGANIZATION ( #334, #113 ) ;
#304 = AXIS2_PLACEMENT_3D ( 'NONE', #322, #65, #21 ) ;
#305 = EDGE_CURVE ( 'NONE', #309, #85, #231, .T. ) ;
#306 = PERSON_AND_ORGANIZATION ( #334, #113 ) ;
#307 = CLOSED_SHELL ( 'NONE', ( #38, #154, #69, #278, #327, #163, #116, #3, #282, #104 ) ) ;
#308 = VECTOR ( 'NONE', #70, 1000.000000000000000 ) ;
#309 = VERTEX_POINT ( 'NONE', #222 ) ;
#310 = PERSON_AND_ORGANIZATION ( #334, #113 ) ;
#311 = APPROVAL ( #8, 'UNSPECIFIED' ) ;
#312 = ORIENTED_EDGE ( 'NONE', *, *, #331, .T. ) ;
#313 = ORIENTED_EDGE ( 'NONE', *, *, #290, .F. ) ;
#314 = APPROVAL_PERSON_ORGANIZATION ( #310, #311, #264 ) ;
#315 = CYLINDRICAL_SURFACE ( 'NONE', #185, 6.349999999999999645 ) ;
#316 = CARTESIAN_POINT ( 'NONE',  ( -1.614212418857619014, 0.000000000000000000, 0.000000000000000000 ) ) ;
#317 = FACE_OUTER_BOUND ( 'NONE', #2, .T. ) ;
#318 = CYLINDRICAL_SURFACE ( 'NONE', #142, 12.69999999999999929 ) ;
#319 = DIRECTION ( 'NONE',  ( -1.000000000000000000, -0.000000000000000000, -0.000000000000000000 ) ) ;
#320 = ORIENTED_EDGE ( 'NONE', *, *, #174, .T. ) ;
#321 = APPROVAL_PERSON_ORGANIZATION ( #303, #188, #333 ) ;
#322 = CARTESIAN_POINT ( 'NONE',  ( 1.500000000000000888, 0.000000000000000000, 0.000000000000000000 ) ) ;
#323 = VERTEX_POINT ( 'NONE', #176 ) ;
#324 = CARTESIAN_POINT ( 'NONE',  ( 3.000000000000000888, 0.000000000000000000, 0.000000000000000000 ) ) ;
#325 = DIRECTION ( 'NONE',  ( 1.000000000000000000, 0.000000000000000000, 0.000000000000000000 ) ) ;
#326 = DIRECTION ( 'NONE',  ( -1.000000000000000000, -0.000000000000000000, -0.000000000000000000 ) ) ;
#327 = ADVANCED_FACE ( 'NONE', ( #317 ), #293, .F. ) ;
#328 = LOCAL_TIME ( 17, 13, 56.00000000000000000, #75 ) ;
#329 = CARTESIAN_POINT ( 'NONE',  ( -2.999999999999999556, 0.000000000000000000, 0.000000000000000000 ) ) ;
#330 = CALENDAR_DATE ( 2020, 22, 12 ) ;
#331 = EDGE_CURVE ( 'NONE', #85, #187, #56, .T. ) ;
#332 = CARTESIAN_POINT ( 'NONE',  ( -1.614212418857619014, 0.000000000000000000, 0.000000000000000000 ) ) ;
#333 = APPROVAL_ROLE ( '' ) ;
#334 = PERSON ( 'UNSPECIFIED', 'UNSPECIFIED', 'UNSPECIFIED', ('UNSPECIFIED'), ('UNSPECIFIED'), ('UNSPECIFIED') ) ;
#335 = ORIENTED_EDGE ( 'NONE', *, *, #45, .F. ) ;
ENDSEC;
END-ISO-10303-21;
